ISO-10303-21;
HEADER;
/* Generated by software containing ST-Developer
 * from STEP Tools, Inc. (www.steptools.com) 
 */

FILE_DESCRIPTION(
/* description */ (''),
/* implementation_level */ '2;1');

FILE_NAME(
/* name */ '',
/* time_stamp */ '2025-07-23T13:44:35+07:00',
/* author */ ('zeta-86'),
/* organization */ (''),
/* preprocessor_version */ 'ST-DEVELOPER v19.2',
/* originating_system */ 'Autodesk Inventor 2024',
/* authorisation */ '');

FILE_SCHEMA (('AUTOMOTIVE_DESIGN { 1 0 10303 214 3 1 1 }'));
ENDSEC;

DATA;
#10=MECHANICAL_DESIGN_GEOMETRIC_PRESENTATION_REPRESENTATION('',(#13),#472);
#11=SHAPE_REPRESENTATION_RELATIONSHIP('SRR','None',#479,#12);
#12=ADVANCED_BREP_SHAPE_REPRESENTATION('',(#14),#471);
#13=STYLED_ITEM('',(#488),#14);
#14=MANIFOLD_SOLID_BREP('\X2\04220432043504400434043E0435\X0\ \X2\04420435043B043E\X0\1',
#221);
#15=(
BOUNDED_CURVE()
B_SPLINE_CURVE(2,(#466,#467,#468),.UNSPECIFIED.,.F.,.F.)
B_SPLINE_CURVE_WITH_KNOTS((3,3),(-1.31759932468095,-1.24198688326278),
 .UNSPECIFIED.)
CURVE()
GEOMETRIC_REPRESENTATION_ITEM()
RATIONAL_B_SPLINE_CURVE((0.995756313997718,0.99716484556053,1.))
REPRESENTATION_ITEM('')
);
#16=(
BOUNDED_SURFACE()
B_SPLINE_SURFACE(2,2,((#439,#440,#441,#442,#443,#444,#445,#446,#447),(#448,
#449,#450,#451,#452,#453,#454,#455,#456),(#457,#458,#459,#460,#461,#462,
#463,#464,#465)),.UNSPECIFIED.,.F.,.T.,.F.)
B_SPLINE_SURFACE_WITH_KNOTS((3,3),(3,2,2,2,3),(1.24198688326278,1.54251893342603),
(-3.14159265358979,-1.5707963267949,0.,1.5707963267949,3.14159265358979),
 .UNSPECIFIED.)
GEOMETRIC_REPRESENTATION_ITEM()
RATIONAL_B_SPLINE_SURFACE(((1.,0.707106781186548,1.,0.707106781186548,1.,
0.707106781186548,1.,0.707106781186548,1.),(0.988731288657762,0.699138598981217,
0.988731288657762,0.699138598981217,0.988731288657762,0.699138598981217,
0.988731288657762,0.699138598981217,0.988731288657762),(1.,0.707106781186548,
1.,0.707106781186548,1.,0.707106781186548,1.,0.707106781186548,1.)))
REPRESENTATION_ITEM('')
SURFACE()
);
#17=FACE_BOUND('',#66,.T.);
#18=FACE_BOUND('',#71,.T.);
#19=CONICAL_SURFACE('',#259,6.25,0.785398163397446);
#20=CONICAL_SURFACE('',#263,7.575,0.785398163397448);
#21=CONICAL_SURFACE('',#269,7.575,0.785398163397447);
#22=B_SPLINE_CURVE_WITH_KNOTS('',3,(#366,#367,#368,#369,#370,#371,#372,
#373,#374,#375),.UNSPECIFIED.,.F.,.F.,(4,2,2,2,4),(7.62298242798434,7.73992255877919,
8.28274049435192,8.82555842992466,8.94249856071951),.UNSPECIFIED.);
#23=B_SPLINE_CURVE_WITH_KNOTS('',3,(#380,#381,#382,#383,#384,#385,#386,
#387,#388,#389),.UNSPECIFIED.,.F.,.F.,(4,2,2,2,4),(7.62298242798434,7.73992255877919,
8.28274049435192,8.82555842992466,8.94249856071951),.UNSPECIFIED.);
#24=B_SPLINE_CURVE_WITH_KNOTS('',3,(#393,#394,#395,#396,#397,#398),
 .UNSPECIFIED.,.F.,.F.,(4,2,4),(-0.150072266084452,-0.135037826726381,-0.0750334434763792),
 .UNSPECIFIED.);
#25=B_SPLINE_CURVE_WITH_KNOTS('',3,(#399,#400,#401,#402,#403,#404),
 .UNSPECIFIED.,.F.,.F.,(4,2,4),(-0.150094521716647,-0.0762900376592541,
0.),.UNSPECIFIED.);
#26=B_SPLINE_CURVE_WITH_KNOTS('',3,(#405,#406,#407,#408),.UNSPECIFIED.,
 .F.,.F.,(4,4),(-0.0750334434763792,0.),.UNSPECIFIED.);
#27=LINE('',#359,#33);
#28=LINE('',#412,#34);
#29=LINE('',#421,#35);
#30=LINE('',#427,#36);
#31=LINE('',#429,#37);
#32=LINE('',#438,#38);
#33=VECTOR('',#293,7.15);
#34=VECTOR('',#312,6.25);
#35=VECTOR('',#323,7.575);
#36=VECTOR('',#330,8.);
#37=VECTOR('',#333,7.575);
#38=VECTOR('',#344,9.);
#39=CYLINDRICAL_SURFACE('',#251,7.15);
#40=CYLINDRICAL_SURFACE('',#258,40.4101575327166);
#41=CYLINDRICAL_SURFACE('',#266,8.);
#42=CYLINDRICAL_SURFACE('',#272,9.);
#43=TOROIDAL_SURFACE('',#246,7.75,0.75);
#44=FACE_OUTER_BOUND('',#58,.T.);
#45=FACE_OUTER_BOUND('',#59,.T.);
#46=FACE_OUTER_BOUND('',#60,.T.);
#47=FACE_OUTER_BOUND('',#61,.T.);
#48=FACE_OUTER_BOUND('',#62,.T.);
#49=FACE_OUTER_BOUND('',#63,.T.);
#50=FACE_OUTER_BOUND('',#64,.T.);
#51=FACE_OUTER_BOUND('',#65,.T.);
#52=FACE_OUTER_BOUND('',#67,.T.);
#53=FACE_OUTER_BOUND('',#68,.T.);
#54=FACE_OUTER_BOUND('',#69,.T.);
#55=FACE_OUTER_BOUND('',#70,.T.);
#56=FACE_OUTER_BOUND('',#72,.T.);
#57=FACE_OUTER_BOUND('',#73,.T.);
#58=EDGE_LOOP('',(#142));
#59=EDGE_LOOP('',(#143,#144,#145,#146,#147));
#60=EDGE_LOOP('',(#148,#149,#150,#151,#152,#153));
#61=EDGE_LOOP('',(#154,#155));
#62=EDGE_LOOP('',(#156,#157));
#63=EDGE_LOOP('',(#158,#159,#160,#161,#162));
#64=EDGE_LOOP('',(#163,#164,#165,#166));
#65=EDGE_LOOP('',(#167));
#66=EDGE_LOOP('',(#168));
#67=EDGE_LOOP('',(#169,#170,#171,#172,#173));
#68=EDGE_LOOP('',(#174,#175,#176,#177,#178,#179));
#69=EDGE_LOOP('',(#180,#181,#182,#183,#184,#185));
#70=EDGE_LOOP('',(#186));
#71=EDGE_LOOP('',(#187));
#72=EDGE_LOOP('',(#188,#189,#190,#191,#192));
#73=EDGE_LOOP('',(#193,#194,#195,#196,#197,#198,#199,#200,#201));
#74=CIRCLE('',#245,6.);
#75=CIRCLE('',#247,7.15);
#76=CIRCLE('',#248,7.15);
#77=CIRCLE('',#249,0.75);
#78=CIRCLE('',#250,8.45710681912221);
#79=CIRCLE('',#252,7.15);
#80=CIRCLE('',#253,7.15);
#81=CIRCLE('',#255,40.4101575327166);
#82=CIRCLE('',#257,40.4101575327166);
#83=CIRCLE('',#260,6.5);
#84=CIRCLE('',#262,7.15);
#85=CIRCLE('',#264,8.);
#86=CIRCLE('',#265,8.);
#87=CIRCLE('',#267,8.);
#88=CIRCLE('',#268,8.);
#89=CIRCLE('',#271,9.);
#90=CIRCLE('',#273,9.);
#91=CIRCLE('',#274,9.);
#92=VERTEX_POINT('',#347);
#93=VERTEX_POINT('',#350);
#94=VERTEX_POINT('',#351);
#95=VERTEX_POINT('',#354);
#96=VERTEX_POINT('',#358);
#97=VERTEX_POINT('',#360);
#98=VERTEX_POINT('',#364);
#99=VERTEX_POINT('',#365);
#100=VERTEX_POINT('',#378);
#101=VERTEX_POINT('',#379);
#102=VERTEX_POINT('',#392);
#103=VERTEX_POINT('',#410);
#104=VERTEX_POINT('',#414);
#105=VERTEX_POINT('',#417);
#106=VERTEX_POINT('',#418);
#107=VERTEX_POINT('',#423);
#108=VERTEX_POINT('',#424);
#109=VERTEX_POINT('',#431);
#110=VERTEX_POINT('',#434);
#111=VERTEX_POINT('',#435);
#112=EDGE_CURVE('',#92,#92,#74,.T.);
#113=EDGE_CURVE('',#93,#94,#75,.T.);
#114=EDGE_CURVE('',#94,#93,#76,.T.);
#115=EDGE_CURVE('',#94,#95,#77,.T.);
#116=EDGE_CURVE('',#95,#95,#78,.T.);
#117=EDGE_CURVE('',#93,#96,#27,.T.);
#118=EDGE_CURVE('',#96,#97,#79,.T.);
#119=EDGE_CURVE('',#97,#96,#80,.T.);
#120=EDGE_CURVE('',#98,#99,#22,.T.);
#121=EDGE_CURVE('',#99,#98,#81,.T.);
#122=EDGE_CURVE('',#100,#101,#23,.T.);
#123=EDGE_CURVE('',#101,#100,#82,.T.);
#124=EDGE_CURVE('',#101,#102,#24,.T.);
#125=EDGE_CURVE('',#99,#100,#25,.T.);
#126=EDGE_CURVE('',#102,#98,#26,.T.);
#127=EDGE_CURVE('',#103,#103,#83,.T.);
#128=EDGE_CURVE('',#103,#92,#28,.T.);
#129=EDGE_CURVE('',#104,#104,#84,.T.);
#130=EDGE_CURVE('',#105,#106,#85,.T.);
#131=EDGE_CURVE('',#106,#105,#86,.T.);
#132=EDGE_CURVE('',#105,#104,#29,.T.);
#133=EDGE_CURVE('',#107,#108,#87,.T.);
#134=EDGE_CURVE('',#108,#107,#88,.T.);
#135=EDGE_CURVE('',#108,#106,#30,.T.);
#136=EDGE_CURVE('',#97,#107,#31,.T.);
#137=EDGE_CURVE('',#109,#109,#89,.T.);
#138=EDGE_CURVE('',#110,#111,#90,.T.);
#139=EDGE_CURVE('',#111,#110,#91,.T.);
#140=EDGE_CURVE('',#111,#109,#32,.T.);
#141=EDGE_CURVE('',#102,#110,#15,.T.);
#142=ORIENTED_EDGE('',*,*,#112,.F.);
#143=ORIENTED_EDGE('',*,*,#113,.F.);
#144=ORIENTED_EDGE('',*,*,#114,.F.);
#145=ORIENTED_EDGE('',*,*,#115,.T.);
#146=ORIENTED_EDGE('',*,*,#116,.T.);
#147=ORIENTED_EDGE('',*,*,#115,.F.);
#148=ORIENTED_EDGE('',*,*,#113,.T.);
#149=ORIENTED_EDGE('',*,*,#114,.T.);
#150=ORIENTED_EDGE('',*,*,#117,.T.);
#151=ORIENTED_EDGE('',*,*,#118,.T.);
#152=ORIENTED_EDGE('',*,*,#119,.T.);
#153=ORIENTED_EDGE('',*,*,#117,.F.);
#154=ORIENTED_EDGE('',*,*,#120,.F.);
#155=ORIENTED_EDGE('',*,*,#121,.F.);
#156=ORIENTED_EDGE('',*,*,#122,.F.);
#157=ORIENTED_EDGE('',*,*,#123,.F.);
#158=ORIENTED_EDGE('',*,*,#124,.F.);
#159=ORIENTED_EDGE('',*,*,#123,.T.);
#160=ORIENTED_EDGE('',*,*,#125,.F.);
#161=ORIENTED_EDGE('',*,*,#121,.T.);
#162=ORIENTED_EDGE('',*,*,#126,.F.);
#163=ORIENTED_EDGE('',*,*,#127,.T.);
#164=ORIENTED_EDGE('',*,*,#128,.T.);
#165=ORIENTED_EDGE('',*,*,#112,.T.);
#166=ORIENTED_EDGE('',*,*,#128,.F.);
#167=ORIENTED_EDGE('',*,*,#129,.F.);
#168=ORIENTED_EDGE('',*,*,#127,.F.);
#169=ORIENTED_EDGE('',*,*,#130,.T.);
#170=ORIENTED_EDGE('',*,*,#131,.T.);
#171=ORIENTED_EDGE('',*,*,#132,.T.);
#172=ORIENTED_EDGE('',*,*,#129,.T.);
#173=ORIENTED_EDGE('',*,*,#132,.F.);
#174=ORIENTED_EDGE('',*,*,#133,.F.);
#175=ORIENTED_EDGE('',*,*,#134,.F.);
#176=ORIENTED_EDGE('',*,*,#135,.T.);
#177=ORIENTED_EDGE('',*,*,#130,.F.);
#178=ORIENTED_EDGE('',*,*,#131,.F.);
#179=ORIENTED_EDGE('',*,*,#135,.F.);
#180=ORIENTED_EDGE('',*,*,#119,.F.);
#181=ORIENTED_EDGE('',*,*,#136,.T.);
#182=ORIENTED_EDGE('',*,*,#133,.T.);
#183=ORIENTED_EDGE('',*,*,#134,.T.);
#184=ORIENTED_EDGE('',*,*,#136,.F.);
#185=ORIENTED_EDGE('',*,*,#118,.F.);
#186=ORIENTED_EDGE('',*,*,#137,.F.);
#187=ORIENTED_EDGE('',*,*,#116,.F.);
#188=ORIENTED_EDGE('',*,*,#138,.F.);
#189=ORIENTED_EDGE('',*,*,#139,.F.);
#190=ORIENTED_EDGE('',*,*,#140,.T.);
#191=ORIENTED_EDGE('',*,*,#137,.T.);
#192=ORIENTED_EDGE('',*,*,#140,.F.);
#193=ORIENTED_EDGE('',*,*,#122,.T.);
#194=ORIENTED_EDGE('',*,*,#124,.T.);
#195=ORIENTED_EDGE('',*,*,#141,.T.);
#196=ORIENTED_EDGE('',*,*,#138,.T.);
#197=ORIENTED_EDGE('',*,*,#139,.T.);
#198=ORIENTED_EDGE('',*,*,#141,.F.);
#199=ORIENTED_EDGE('',*,*,#126,.T.);
#200=ORIENTED_EDGE('',*,*,#120,.T.);
#201=ORIENTED_EDGE('',*,*,#125,.T.);
#202=PLANE('',#244);
#203=PLANE('',#254);
#204=PLANE('',#256);
#205=PLANE('',#261);
#206=PLANE('',#270);
#207=ADVANCED_FACE('',(#44),#202,.F.);
#208=ADVANCED_FACE('',(#45),#43,.T.);
#209=ADVANCED_FACE('',(#46),#39,.T.);
#210=ADVANCED_FACE('',(#47),#203,.F.);
#211=ADVANCED_FACE('',(#48),#204,.T.);
#212=ADVANCED_FACE('',(#49),#40,.F.);
#213=ADVANCED_FACE('',(#50),#19,.F.);
#214=ADVANCED_FACE('',(#51,#17),#205,.T.);
#215=ADVANCED_FACE('',(#52),#20,.T.);
#216=ADVANCED_FACE('',(#53),#41,.T.);
#217=ADVANCED_FACE('',(#54),#21,.T.);
#218=ADVANCED_FACE('',(#55,#18),#206,.T.);
#219=ADVANCED_FACE('',(#56),#42,.T.);
#220=ADVANCED_FACE('',(#57),#16,.F.);
#221=CLOSED_SHELL('',(#207,#208,#209,#210,#211,#212,#213,#214,#215,#216,
#217,#218,#219,#220));
#222=DERIVED_UNIT_ELEMENT(#225,1.);
#223=DERIVED_UNIT_ELEMENT(#474,-3.);
#224=DIMENSIONAL_EXPONENTS(0.,1.,0.,0.,0.,0.,0.);
#225=(
CONVERSION_BASED_UNIT('gram',#227)
MASS_UNIT()
NAMED_UNIT(#224)
);
#226=(
MASS_UNIT()
NAMED_UNIT(*)
SI_UNIT(.KILO.,.GRAM.)
);
#227=MASS_MEASURE_WITH_UNIT(MASS_MEASURE(0.001),#226);
#228=DERIVED_UNIT((#222,#223));
#229=MEASURE_REPRESENTATION_ITEM('density measure',
POSITIVE_RATIO_MEASURE(1.),#228);
#230=PROPERTY_DEFINITION_REPRESENTATION(#235,#232);
#231=PROPERTY_DEFINITION_REPRESENTATION(#236,#233);
#232=REPRESENTATION('material name',(#234),#471);
#233=REPRESENTATION('density',(#229),#471);
#234=DESCRIPTIVE_REPRESENTATION_ITEM('\X2\04220438043F043E0432044B0435\X0\',
'\X2\04220438043F043E0432044B0435\X0\');
#235=PROPERTY_DEFINITION('material property','material name',#481);
#236=PROPERTY_DEFINITION('material property','density of part',#481);
#237=DATE_TIME_ROLE('creation_date');
#238=APPLIED_DATE_AND_TIME_ASSIGNMENT(#239,#237,(#481));
#239=DATE_AND_TIME(#240,#241);
#240=CALENDAR_DATE(2025,23,7);
#241=LOCAL_TIME(0,0,0.,#242);
#242=COORDINATED_UNIVERSAL_TIME_OFFSET(0,0,.BEHIND.);
#243=AXIS2_PLACEMENT_3D('',#345,#275,#276);
#244=AXIS2_PLACEMENT_3D('',#346,#277,#278);
#245=AXIS2_PLACEMENT_3D('',#348,#279,#280);
#246=AXIS2_PLACEMENT_3D('',#349,#281,#282);
#247=AXIS2_PLACEMENT_3D('',#352,#283,#284);
#248=AXIS2_PLACEMENT_3D('',#353,#285,#286);
#249=AXIS2_PLACEMENT_3D('',#355,#287,#288);
#250=AXIS2_PLACEMENT_3D('',#356,#289,#290);
#251=AXIS2_PLACEMENT_3D('',#357,#291,#292);
#252=AXIS2_PLACEMENT_3D('',#361,#294,#295);
#253=AXIS2_PLACEMENT_3D('',#362,#296,#297);
#254=AXIS2_PLACEMENT_3D('',#363,#298,#299);
#255=AXIS2_PLACEMENT_3D('',#376,#300,#301);
#256=AXIS2_PLACEMENT_3D('',#377,#302,#303);
#257=AXIS2_PLACEMENT_3D('',#390,#304,#305);
#258=AXIS2_PLACEMENT_3D('',#391,#306,#307);
#259=AXIS2_PLACEMENT_3D('',#409,#308,#309);
#260=AXIS2_PLACEMENT_3D('',#411,#310,#311);
#261=AXIS2_PLACEMENT_3D('',#413,#313,#314);
#262=AXIS2_PLACEMENT_3D('',#415,#315,#316);
#263=AXIS2_PLACEMENT_3D('',#416,#317,#318);
#264=AXIS2_PLACEMENT_3D('',#419,#319,#320);
#265=AXIS2_PLACEMENT_3D('',#420,#321,#322);
#266=AXIS2_PLACEMENT_3D('',#422,#324,#325);
#267=AXIS2_PLACEMENT_3D('',#425,#326,#327);
#268=AXIS2_PLACEMENT_3D('',#426,#328,#329);
#269=AXIS2_PLACEMENT_3D('',#428,#331,#332);
#270=AXIS2_PLACEMENT_3D('',#430,#334,#335);
#271=AXIS2_PLACEMENT_3D('',#432,#336,#337);
#272=AXIS2_PLACEMENT_3D('',#433,#338,#339);
#273=AXIS2_PLACEMENT_3D('',#436,#340,#341);
#274=AXIS2_PLACEMENT_3D('',#437,#342,#343);
#275=DIRECTION('axis',(0.,0.,1.));
#276=DIRECTION('refdir',(1.,0.,0.));
#277=DIRECTION('center_axis',(0.,1.,0.));
#278=DIRECTION('ref_axis',(0.,0.,1.));
#279=DIRECTION('center_axis',(0.,1.,0.));
#280=DIRECTION('ref_axis',(1.,0.,0.));
#281=DIRECTION('center_axis',(1.12610939759684E-15,-1.,0.));
#282=DIRECTION('ref_axis',(-1.49359740262031E-11,0.,-1.));
#283=DIRECTION('center_axis',(0.,-1.,0.));
#284=DIRECTION('ref_axis',(-1.,0.,0.));
#285=DIRECTION('center_axis',(0.,-1.,0.));
#286=DIRECTION('ref_axis',(-1.,0.,0.));
#287=DIRECTION('center_axis',(-1.,-1.12610939759684E-15,1.49358303502822E-11));
#288=DIRECTION('ref_axis',(1.49358303502822E-11,0.,1.));
#289=DIRECTION('center_axis',(5.63054698798419E-16,-1.,0.));
#290=DIRECTION('ref_axis',(0.,0.,-1.));
#291=DIRECTION('center_axis',(0.,1.,0.));
#292=DIRECTION('ref_axis',(-1.,0.,0.));
#293=DIRECTION('',(0.,-1.,0.));
#294=DIRECTION('center_axis',(0.,1.,0.));
#295=DIRECTION('ref_axis',(1.,0.,0.));
#296=DIRECTION('center_axis',(0.,1.,0.));
#297=DIRECTION('ref_axis',(1.,0.,0.));
#298=DIRECTION('center_axis',(1.,0.,0.));
#299=DIRECTION('ref_axis',(0.,0.,-1.));
#300=DIRECTION('center_axis',(1.,0.,0.));
#301=DIRECTION('ref_axis',(0.,1.,0.));
#302=DIRECTION('center_axis',(1.,0.,0.));
#303=DIRECTION('ref_axis',(0.,0.,-1.));
#304=DIRECTION('center_axis',(-1.,0.,0.));
#305=DIRECTION('ref_axis',(0.,1.,0.));
#306=DIRECTION('center_axis',(1.,0.,0.));
#307=DIRECTION('ref_axis',(0.,-0.999999995631841,-9.34682745538396E-5));
#308=DIRECTION('center_axis',(0.,-1.,0.));
#309=DIRECTION('ref_axis',(1.,0.,0.));
#310=DIRECTION('center_axis',(0.,-1.,0.));
#311=DIRECTION('ref_axis',(1.,0.,0.));
#312=DIRECTION('',(0.707106781186546,0.707106781186549,8.65956056235491E-17));
#313=DIRECTION('center_axis',(0.,-1.,0.));
#314=DIRECTION('ref_axis',(0.,0.,-1.));
#315=DIRECTION('center_axis',(0.,1.,0.));
#316=DIRECTION('ref_axis',(1.,0.,0.));
#317=DIRECTION('center_axis',(0.,1.,0.));
#318=DIRECTION('ref_axis',(1.,0.,0.));
#319=DIRECTION('center_axis',(0.,-1.,0.));
#320=DIRECTION('ref_axis',(1.,0.,0.));
#321=DIRECTION('center_axis',(0.,-1.,0.));
#322=DIRECTION('ref_axis',(1.,0.,0.));
#323=DIRECTION('',(0.707106781186547,-0.707106781186548,-8.65956056235493E-17));
#324=DIRECTION('center_axis',(0.,1.,0.));
#325=DIRECTION('ref_axis',(-1.,0.,0.));
#326=DIRECTION('center_axis',(0.,1.,0.));
#327=DIRECTION('ref_axis',(1.,0.,0.));
#328=DIRECTION('center_axis',(0.,1.,0.));
#329=DIRECTION('ref_axis',(1.,0.,0.));
#330=DIRECTION('',(0.,-1.,0.));
#331=DIRECTION('center_axis',(0.,-1.,0.));
#332=DIRECTION('ref_axis',(1.,0.,0.));
#333=DIRECTION('',(-0.707106781186547,-0.707106781186548,8.65956056235493E-17));
#334=DIRECTION('center_axis',(0.,-1.,0.));
#335=DIRECTION('ref_axis',(0.,0.,-1.));
#336=DIRECTION('center_axis',(0.,1.,0.));
#337=DIRECTION('ref_axis',(1.,0.,0.));
#338=DIRECTION('center_axis',(0.,1.,0.));
#339=DIRECTION('ref_axis',(-1.,0.,0.));
#340=DIRECTION('center_axis',(0.,1.,0.));
#341=DIRECTION('ref_axis',(1.,0.,0.));
#342=DIRECTION('center_axis',(0.,1.,0.));
#343=DIRECTION('ref_axis',(1.,0.,0.));
#344=DIRECTION('',(0.,-1.,0.));
#345=CARTESIAN_POINT('',(0.,0.,0.));
#346=CARTESIAN_POINT('Origin',(-2.06367920800442,-2.87516958712541,0.));
#347=CARTESIAN_POINT('',(-8.06367920800442,-2.87516958712541,7.34788079488412E-16));
#348=CARTESIAN_POINT('Origin',(-2.06367920800442,-2.87516958712541,0.));
#349=CARTESIAN_POINT('Origin',(-2.06367920800442,2.37483041287459,0.));
#350=CARTESIAN_POINT('',(5.08632079199558,1.92483041287459,8.75622461390358E-16));
#351=CARTESIAN_POINT('',(-2.06367920789763,1.92483041287459,7.15));
#352=CARTESIAN_POINT('Origin',(-2.06367920800442,1.92483041287459,0.));
#353=CARTESIAN_POINT('Origin',(-2.06367920800442,1.92483041287459,0.));
#354=CARTESIAN_POINT('',(-2.06367920800442,2.62483030557632,8.45710681912221));
#355=CARTESIAN_POINT('Origin',(-2.06367920788867,2.37483041287459,7.75));
#356=CARTESIAN_POINT('Origin',(-2.06367920800442,2.62483030557632,0.));
#357=CARTESIAN_POINT('Origin',(-2.06367920800442,2.12483041287459,0.));
#358=CARTESIAN_POINT('',(5.08632079199558,1.12483041287459,-8.75622461390358E-16));
#359=CARTESIAN_POINT('',(5.08632079199558,2.12483041287459,-8.75622461390358E-16));
#360=CARTESIAN_POINT('',(-9.21367920800442,1.12483041287459,0.));
#361=CARTESIAN_POINT('Origin',(-2.06367920800442,1.12483041287459,0.));
#362=CARTESIAN_POINT('Origin',(-2.06367920800442,1.12483041287459,0.));
#363=CARTESIAN_POINT('Origin',(-1.31367920800442,44.5349879455912,0.));
#364=CARTESIAN_POINT('',(-1.31367920800442,4.72716716234171,-6.95113201627354));
#365=CARTESIAN_POINT('',(-1.31367920800442,4.72716716234172,6.95113201627355));
#366=CARTESIAN_POINT('Ctrl Pts',(-1.31367920800442,4.72716716234171,-6.95113201627354));
#367=CARTESIAN_POINT('Ctrl Pts',(-1.31367920800442,4.83287258577239,-6.54143034364289));
#368=CARTESIAN_POINT('Ctrl Pts',(-1.31367920800442,4.9296524413252,-6.12781346895012));
#369=CARTESIAN_POINT('Ctrl Pts',(-1.31367920800442,5.42212795798725,-3.78318302677042));
#370=CARTESIAN_POINT('Ctrl Pts',(-1.31367920800442,5.61366759944973,-1.80939311857578));
#371=CARTESIAN_POINT('Ctrl Pts',(-1.31367920800442,5.61366759944973,1.80939311857578));
#372=CARTESIAN_POINT('Ctrl Pts',(-1.31367920800442,5.42212795798726,3.78318302677042));
#373=CARTESIAN_POINT('Ctrl Pts',(-1.31367920800442,4.92965244132521,6.12781346895012));
#374=CARTESIAN_POINT('Ctrl Pts',(-1.31367920800442,4.83287258577239,6.54143034364289));
#375=CARTESIAN_POINT('Ctrl Pts',(-1.31367920800442,4.72716716234171,6.95113201627355));
#376=CARTESIAN_POINT('Origin',(-1.31367920800442,44.5349879455912,0.));
#377=CARTESIAN_POINT('Origin',(-2.81367920800442,44.5349879455912,0.));
#378=CARTESIAN_POINT('',(-2.81367920800442,4.72716716234172,6.95113201627355));
#379=CARTESIAN_POINT('',(-2.81367920800442,4.72716716234171,-6.95113201627354));
#380=CARTESIAN_POINT('Ctrl Pts',(-2.81367920800442,4.72716716234171,6.95113201627355));
#381=CARTESIAN_POINT('Ctrl Pts',(-2.81367920800442,4.83287258577239,6.5414303436429));
#382=CARTESIAN_POINT('Ctrl Pts',(-2.81367920800442,4.9296524413252,6.12781346895012));
#383=CARTESIAN_POINT('Ctrl Pts',(-2.81367920800442,5.42212795798725,3.78318302677042));
#384=CARTESIAN_POINT('Ctrl Pts',(-2.81367920800442,5.61366759944973,1.80939311857578));
#385=CARTESIAN_POINT('Ctrl Pts',(-2.81367920800442,5.61366759944973,-1.80939311857578));
#386=CARTESIAN_POINT('Ctrl Pts',(-2.81367920800442,5.42212795798726,-3.78318302677042));
#387=CARTESIAN_POINT('Ctrl Pts',(-2.81367920800442,4.92965244132521,-6.12781346895012));
#388=CARTESIAN_POINT('Ctrl Pts',(-2.81367920800442,4.83287258577239,-6.54143034364289));
#389=CARTESIAN_POINT('Ctrl Pts',(-2.81367920800442,4.72716716234171,-6.95113201627354));
#390=CARTESIAN_POINT('Origin',(-2.81367920800442,44.5349879455912,0.));
#391=CARTESIAN_POINT('Origin',(-2.06367920800442,44.5349879455912,0.));
#392=CARTESIAN_POINT('',(-2.06367920800442,4.73138068430676,-6.97521905092576));
#393=CARTESIAN_POINT('Ctrl Pts',(-2.81367920800442,4.72716716234171,-6.95113201627354));
#394=CARTESIAN_POINT('Ctrl Pts',(-2.76367080897892,4.72772905797342,-6.95434988647851));
#395=CARTESIAN_POINT('Ctrl Pts',(-2.71364054619964,4.72823499700008,-6.95724502439062));
#396=CARTESIAN_POINT('Ctrl Pts',(-2.4638501338814,4.73048000278503,-6.9700852144127));
#397=CARTESIAN_POINT('Ctrl Pts',(-2.26376826830407,4.73138068430676,-6.97521905092576));
#398=CARTESIAN_POINT('Ctrl Pts',(-2.06367920800442,4.73138068430676,-6.97521905092576));
#399=CARTESIAN_POINT('Ctrl Pts',(-1.31367920800442,4.72716716234171,6.95113201627355));
#400=CARTESIAN_POINT('Ctrl Pts',(-1.55917103737841,4.72992551472318,6.96692857962493));
#401=CARTESIAN_POINT('Ctrl Pts',(-1.80523302824176,4.73133371169506,6.97495100469226));
#402=CARTESIAN_POINT('Ctrl Pts',(-2.30554936754077,4.73142688492447,6.97548269182971));
#403=CARTESIAN_POINT('Ctrl Pts',(-2.55991986786125,4.73001840868254,6.96746056579309));
#404=CARTESIAN_POINT('Ctrl Pts',(-2.81367920800442,4.72716716234171,6.95113201627355));
#405=CARTESIAN_POINT('Ctrl Pts',(-2.06367920800442,4.73138068430676,-6.97521905092576));
#406=CARTESIAN_POINT('Ctrl Pts',(-1.81347463322055,4.73138068430676,-6.97521905092576));
#407=CARTESIAN_POINT('Ctrl Pts',(-1.56325880829613,4.72997144502023,-6.96719161376514));
#408=CARTESIAN_POINT('Ctrl Pts',(-1.31367920800442,4.72716716234171,-6.95113201627355));
#409=CARTESIAN_POINT('Origin',(-2.06367920800442,-3.12516958712541,0.));
#410=CARTESIAN_POINT('',(-8.56367920800442,-3.37516958712541,-7.9602041944578E-16));
#411=CARTESIAN_POINT('Origin',(-2.06367920800442,-3.37516958712541,0.));
#412=CARTESIAN_POINT('',(-8.31367920800442,-3.12516958712541,-7.65404249467096E-16));
#413=CARTESIAN_POINT('Origin',(-10.0636792080044,-3.37516958712541,0.));
#414=CARTESIAN_POINT('',(-9.21367920800442,-3.37516958712541,8.75622461390358E-16));
#415=CARTESIAN_POINT('Origin',(-2.06367920800442,-3.37516958712541,0.));
#416=CARTESIAN_POINT('Origin',(-2.06367920800442,-2.95016958712541,0.));
#417=CARTESIAN_POINT('',(-10.0636792080044,-2.52516958712541,-9.79717439317883E-16));
#418=CARTESIAN_POINT('',(5.93632079199558,-2.52516958712541,-9.79717439317883E-16));
#419=CARTESIAN_POINT('Origin',(-2.06367920800442,-2.52516958712541,0.));
#420=CARTESIAN_POINT('Origin',(-2.06367920800442,-2.52516958712541,0.));
#421=CARTESIAN_POINT('',(-9.63867920800442,-2.95016958712541,9.2766995035412E-16));
#422=CARTESIAN_POINT('Origin',(-2.06367920800442,-1.12516958712541,0.));
#423=CARTESIAN_POINT('',(-10.0636792080044,0.274830412874589,9.79717439317883E-16));
#424=CARTESIAN_POINT('',(5.93632079199558,0.274830412874589,-9.79717439317883E-16));
#425=CARTESIAN_POINT('Origin',(-2.06367920800442,0.274830412874589,0.));
#426=CARTESIAN_POINT('Origin',(-2.06367920800442,0.274830412874589,0.));
#427=CARTESIAN_POINT('',(5.93632079199558,-1.12516958712541,-9.79717439317883E-16));
#428=CARTESIAN_POINT('Origin',(-2.06367920800442,0.699830412874589,0.));
#429=CARTESIAN_POINT('',(-9.63867920800442,0.699830412874589,9.2766995035412E-16));
#430=CARTESIAN_POINT('Origin',(-11.0636792080044,2.62483041287459,0.));
#431=CARTESIAN_POINT('',(6.93632079199558,2.62483041287459,-1.10218211923262E-15));
#432=CARTESIAN_POINT('Origin',(-2.06367920800442,2.62483041287459,0.));
#433=CARTESIAN_POINT('Origin',(-2.06367920800442,3.37483041287459,0.));
#434=CARTESIAN_POINT('',(-2.06367920800442,4.12483041287459,-9.));
#435=CARTESIAN_POINT('',(6.93632079199558,4.12483041287459,-1.10218211923262E-15));
#436=CARTESIAN_POINT('Origin',(-2.06367920800442,4.12483041287459,0.));
#437=CARTESIAN_POINT('Origin',(-2.06367920800442,4.12483041287459,0.));
#438=CARTESIAN_POINT('',(6.93632079199558,3.37483041287459,-1.10218211923262E-15));
#439=CARTESIAN_POINT('Ctrl Pts',(-2.06367920800442,4.12483041287459,-9.));
#440=CARTESIAN_POINT('Ctrl Pts',(-11.0636792080044,4.12483041287459,-9.));
#441=CARTESIAN_POINT('Ctrl Pts',(-11.0636792080044,4.12483041287459,0.));
#442=CARTESIAN_POINT('Ctrl Pts',(-11.0636792080044,4.12483041287459,9.));
#443=CARTESIAN_POINT('Ctrl Pts',(-2.06367920800442,4.12483041287459,9.));
#444=CARTESIAN_POINT('Ctrl Pts',(6.93632079199558,4.12483041287459,9.));
#445=CARTESIAN_POINT('Ctrl Pts',(6.93632079199558,4.12483041287459,0.));
#446=CARTESIAN_POINT('Ctrl Pts',(6.93632079199558,4.12483041287459,-9.));
#447=CARTESIAN_POINT('Ctrl Pts',(-2.06367920800442,4.12483041287459,-9.));
#448=CARTESIAN_POINT('Ctrl Pts',(-2.06367920800442,5.49380424485807,-4.98771043205342));
#449=CARTESIAN_POINT('Ctrl Pts',(-7.05138964005784,5.49380424485807,-4.98771043205342));
#450=CARTESIAN_POINT('Ctrl Pts',(-7.05138964005784,5.49380424485806,0.));
#451=CARTESIAN_POINT('Ctrl Pts',(-7.05138964005784,5.49380424485806,4.98771043205342));
#452=CARTESIAN_POINT('Ctrl Pts',(-2.06367920800442,5.49380424485806,4.98771043205342));
#453=CARTESIAN_POINT('Ctrl Pts',(2.92403122404899,5.49380424485806,4.98771043205342));
#454=CARTESIAN_POINT('Ctrl Pts',(2.924031224049,5.49380424485806,0.));
#455=CARTESIAN_POINT('Ctrl Pts',(2.92403122404899,5.49380424485807,-4.98771043205342));
#456=CARTESIAN_POINT('Ctrl Pts',(-2.06367920800442,5.49380424485807,-4.98771043205342));
#457=CARTESIAN_POINT('Ctrl Pts',(-2.06367920800442,5.61366759944973,-0.749999999999993));
#458=CARTESIAN_POINT('Ctrl Pts',(-2.81367920800442,5.61366759944973,-0.749999999999993));
#459=CARTESIAN_POINT('Ctrl Pts',(-2.81367920800442,5.61366759944973,0.));
#460=CARTESIAN_POINT('Ctrl Pts',(-2.81367920800442,5.61366759944973,0.749999999999993));
#461=CARTESIAN_POINT('Ctrl Pts',(-2.06367920800442,5.61366759944973,0.749999999999993));
#462=CARTESIAN_POINT('Ctrl Pts',(-1.31367920800443,5.61366759944973,0.749999999999993));
#463=CARTESIAN_POINT('Ctrl Pts',(-1.31367920800443,5.61366759944973,0.));
#464=CARTESIAN_POINT('Ctrl Pts',(-1.31367920800443,5.61366759944973,-0.749999999999993));
#465=CARTESIAN_POINT('Ctrl Pts',(-2.06367920800442,5.61366759944973,-0.749999999999993));
#466=CARTESIAN_POINT('Ctrl Pts',(-2.06367920800442,4.73138068430676,-6.97521905092577));
#467=CARTESIAN_POINT('Ctrl Pts',(-2.06367920800442,4.46634474335107,-7.99906458877326));
#468=CARTESIAN_POINT('Ctrl Pts',(-2.06367920800442,4.12483041287459,-9.));
#469=UNCERTAINTY_MEASURE_WITH_UNIT(LENGTH_MEASURE(0.01),#473,
'DISTANCE_ACCURACY_VALUE',
'Maximum model space distance between geometric entities at asserted c
onnectivities');
#470=UNCERTAINTY_MEASURE_WITH_UNIT(LENGTH_MEASURE(0.01),#473,
'DISTANCE_ACCURACY_VALUE',
'Maximum model space distance between geometric entities at asserted c
onnectivities');
#471=(
GEOMETRIC_REPRESENTATION_CONTEXT(3)
GLOBAL_UNCERTAINTY_ASSIGNED_CONTEXT((#469))
GLOBAL_UNIT_ASSIGNED_CONTEXT((#473,#475,#476))
REPRESENTATION_CONTEXT('','3D')
);
#472=(
GEOMETRIC_REPRESENTATION_CONTEXT(3)
GLOBAL_UNCERTAINTY_ASSIGNED_CONTEXT((#470))
GLOBAL_UNIT_ASSIGNED_CONTEXT((#473,#475,#476))
REPRESENTATION_CONTEXT('','3D')
);
#473=(
LENGTH_UNIT()
NAMED_UNIT(*)
SI_UNIT(.MILLI.,.METRE.)
);
#474=(
LENGTH_UNIT()
NAMED_UNIT(*)
SI_UNIT(.CENTI.,.METRE.)
);
#475=(
NAMED_UNIT(*)
PLANE_ANGLE_UNIT()
SI_UNIT($,.RADIAN.)
);
#476=(
NAMED_UNIT(*)
SI_UNIT($,.STERADIAN.)
SOLID_ANGLE_UNIT()
);
#477=SHAPE_DEFINITION_REPRESENTATION(#478,#479);
#478=PRODUCT_DEFINITION_SHAPE('',$,#481);
#479=SHAPE_REPRESENTATION('',(#243),#471);
#480=PRODUCT_DEFINITION_CONTEXT('part definition',#485,'design');
#481=PRODUCT_DEFINITION('\X2\0414043504420430043B044C\X0\1',
'\X2\0414043504420430043B044C\X0\1',#482,#480);
#482=PRODUCT_DEFINITION_FORMATION('',$,#487);
#483=PRODUCT_RELATED_PRODUCT_CATEGORY('\X2\0414043504420430043B044C\X0\1',
'\X2\0414043504420430043B044C\X0\1',(#487));
#484=APPLICATION_PROTOCOL_DEFINITION('international standard',
'automotive_design',2009,#485);
#485=APPLICATION_CONTEXT(
'Core Data for Automotive Mechanical Design Process');
#486=PRODUCT_CONTEXT('part definition',#485,'mechanical');
#487=PRODUCT('\X2\0414043504420430043B044C\X0\1','\X2\0414043504420430043B044C\X0\1',
$,(#486));
#488=PRESENTATION_STYLE_ASSIGNMENT((#489));
#489=SURFACE_STYLE_USAGE(.BOTH.,#492);
#490=SURFACE_STYLE_RENDERING_WITH_PROPERTIES($,#496,(#491));
#491=SURFACE_STYLE_TRANSPARENT(0.);
#492=SURFACE_SIDE_STYLE('',(#493,#490));
#493=SURFACE_STYLE_FILL_AREA(#494);
#494=FILL_AREA_STYLE('',(#495));
#495=FILL_AREA_STYLE_COLOUR('',#496);
#496=COLOUR_RGB('',0.749019607843137,0.749019607843137,0.749019607843137);
ENDSEC;
END-ISO-10303-21;
